Lord I Lift Your Name On High

Verse:
G5     C2                D     C2
Lord I lift your name on high
G5     C2                D        C2
Lord I love to sing your praises
G5     C2                D     C2
I'm so glad you're in my life
G5     C2               D        C2
I'm so glad you came to save us


Chorus:

G             C         D        C        G
You came from heaven to earth to show the way
         C            D        C       G
From the earth to the cross my debt to pay
         C            D
From the cross to the grave
         Em           C
From the grave to the sky
       D                 G
Lord I lift your name on high



[verse]

[chorus x2]




GUITAR TAB|Lord I Lift Your Name On High
Intro:
Rhythm guitar
e-------3---3--------3---3----------3--3---------3---3--------------------------
B-------3---3--------3---3----------3--3---------3---3--------------------------
G-------0---0--------0---0----------2--2---------0---0--------------------------
D-------0---0-------------------0-0---------------------------------------------
A----------------3-3-------------------------3-3--------------------------------
E---3-3-------------------------------------------------------------------------
    G5           C2             Dsus         C2



Lead guitar comes in
e--------------------------------------------------77777777---------------------
B----------------------88888888--88888888-77777777-88888888---------------------
G----------------------77777777--77777777-77777777-77777777---------------------
D-------5---7p5-----------------------------------------------------------------
A---5h7---------7---------------------------------------------------------------
E-------------------------------------------------------------------------------
                       G5        C2       D        C2

Lead-in to verse:
e-------------------------------------------------------------------------------
B-------------------------------------------------------------------------------
G-------------------------------------------------------------------------------
D-------------------------------------------------------------------------------
A-----3~~~---4~~~---------------------------------------------------------------
E-------------------------------------------------------------------------------